hedwig’s theme tabs

|----------------|
|-HEDWIG'S THEME-|
|----------------|

E-mail: claireleong@mail.com

Tuning: standard

e|-----0---3---2---0---7----5---2------------------------------------|
B|-0-----------------------------------------------------------------|
G|-------------------------------------------------------------------|
D|-------------------------------------------------------------------|
A|--------------------------0----------------------------------------|
E|-----0-----------0------------0------------------------------------|

e|-0---3---2-------2-------------------------------------------------|
B|-------------3-------0---------------------------------------------|
G|-------------------------------------------------------------------|
D|-------------------------------------------------------------------|
A|-------------------------------------------------------------------|
E|-0-----------0-------0---------------------------------------------|

e|-----0---3---2---0---7----10---9---8---5----8---7---6------------0-|
B|-0------------------------------------------------------7----8-----|
G|-------------------------------------------------------------------|
D|-------------------------------------------------------------------|
A|---------------------------0----------------------------0----------|
E|-----0-----------0-----------------0--------0--------------------0-|

e|-----7-------7-------8---7---6---6---7---3---2---0---8---7----------|
B|-8-------8-------8--------------------------------------------------|
G|--------------------------------------------------------------------|
D|--------------------------------------------------------------------|
A|--------------------------------------------------------------------|
E|-----0-------0-------0-------0-------0-----------0-------0----------|

e|-----7-------7-------10---9---8---5---8---5---8---7---6-------3---0-|
B|-8-------8-------8----------------------------------------3---------|
G|--------------------------------------------------------------------|
D|--------------------------------------------------------------------|
A|--------------------------------------------------------------------|
E|-----0-------0-------0--------0-------0-------0-----------0-------0-|
Advertisements

Comment

Fill in your details below or click an icon to log in:

WordPress.com Logo

You are commenting using your WordPress.com account. Log Out / Change )

Twitter picture

You are commenting using your Twitter account. Log Out / Change )

Facebook photo

You are commenting using your Facebook account. Log Out / Change )

Google+ photo

You are commenting using your Google+ account. Log Out / Change )

Connecting to %s